ISO-10303-21;
HEADER;
FILE_DESCRIPTION (( 'STEP AP203' ),
    '1' );
FILE_NAME ('Q-SHPHWP-18-532-M.STEP',
    '2020-12-22T08:58:40',
    ( '' ),
    ( '' ),
    'SwSTEP 2.0',
    'SolidWorks 2020',
    '' );
FILE_SCHEMA (( 'CONFIG_CONTROL_DESIGN' ));
ENDSEC;

DATA;
#1 = FACE_OUTER_BOUND ( 'NONE', #32, .T. ) ;
#2 = ORIENTED_EDGE ( 'NONE', *, *, #141, .F. ) ;
#3 = EDGE_CURVE ( 'NONE', #301, #181, #33, .T. ) ;
#4 = AXIS2_PLACEMENT_3D ( 'NONE', #50, #155, #233 ) ;
#5 = DIRECTION ( 'NONE',  ( 0.000000000000000000, 0.000000000000000000, -1.000000000000000000 ) ) ;
#6 = DIRECTION ( 'NONE',  ( -0.000000000000000000, 0.000000000000000000, 1.000000000000000000 ) ) ;
#7 = ORIENTED_EDGE ( 'NONE', *, *, #303, .T. ) ;
#8 = VECTOR ( 'NONE', #140, 1000.000000000000000 ) ;
#9 = DIRECTION ( 'NONE',  ( 0.000000000000000000, 0.000000000000000000, 1.000000000000000000 ) ) ;
#10 = CC_DESIGN_PERSON_AND_ORGANIZATION_ASSIGNMENT ( #153, #328, ( #315 ) ) ;
#11 = FACE_OUTER_BOUND ( 'NONE', #201, .T. ) ;
#12 = CYLINDRICAL_SURFACE ( 'NONE', #187, 9.000000000000000000 ) ;
#13 = ORIENTED_EDGE ( 'NONE', *, *, #102, .F. ) ;
#14 = PLANE ( 'NONE',  #203 ) ;
#15 = APPROVAL_PERSON_ORGANIZATION ( #308, #147, #131 ) ;
#16 = CALENDAR_DATE ( 2020, 22, 12 ) ;
#17 = CYLINDRICAL_SURFACE ( 'NONE', #307, 12.69999999999999929 ) ;
#18 = DATE_TIME_ROLE ( 'creation_date' ) ;
#19 = CARTESIAN_POINT ( 'NONE',  ( -1.614212418857619014, 0.000000000000000000, 12.69999999999999929 ) ) ;
#20 = PRODUCT_DEFINITION ( 'UNKNOWN', '', #320, #156 ) ;
#21 = AXIS2_PLACEMENT_3D ( 'NONE', #108, #251, #78 ) ;
#22 = APPROVAL_ROLE ( '' ) ;
#23 = ORIENTED_EDGE ( 'NONE', *, *, #28, .F. ) ;
#24 = UNCERTAINTY_MEASURE_WITH_UNIT (LENGTH_MEASURE( 1.000000000000000082E-05 ), #63, 'distance_accuracy_value', 'NONE');
#25 = ADVANCED_FACE ( 'NONE', ( #206 ), #160, .F. ) ;
#26 = PERSON_AND_ORGANIZATION_ROLE ( 'design_owner' ) ;
#27 = EDGE_LOOP ( 'NONE', ( #234, #59 ) ) ;
#28 = EDGE_CURVE ( 'NONE', #97, #329, #31, .T. ) ;
#29 = FACE_OUTER_BOUND ( 'NONE', #73, .T. ) ;
#30 = DIRECTION ( 'NONE',  ( 0.000000000000000000, 0.000000000000000000, 1.000000000000000000 ) ) ;
#31 = CIRCLE ( 'NONE', #71, 12.69999999999999929 ) ;
#32 = EDGE_LOOP ( 'NONE', ( #120, #110, #109, #177 ) ) ;
#33 = CIRCLE ( 'NONE', #4, 12.69999999999999929 ) ;
#34 = DIRECTION ( 'NONE',  ( -1.000000000000000000, -0.000000000000000000, -0.000000000000000000 ) ) ;
#35 = CIRCLE ( 'NONE', #291, 9.000000000000000000 ) ;
#36 = DIRECTION ( 'NONE',  ( -1.000000000000000000, -0.000000000000000000, -0.000000000000000000 ) ) ;
#37 = ORIENTED_EDGE ( 'NONE', *, *, #249, .F. ) ;
#38 = LINE ( 'NONE', #271, #8 ) ;
#39 = FACE_BOUND ( 'NONE', #182, .T. ) ;
#40 = EDGE_LOOP ( 'NONE', ( #198, #136, #58, #2 ) ) ;
#41 = DIRECTION ( 'NONE',  ( 0.000000000000000000, 0.000000000000000000, 1.000000000000000000 ) ) ;
#42 = LOCAL_TIME ( 16, 58, 40.00000000000000000, #200 ) ;
#43 = PERSON_AND_ORGANIZATION_ROLE ( 'creator' ) ;
#44 = EDGE_LOOP ( 'NONE', ( #13, #37 ) ) ;
#45 = LINE ( 'NONE', #159, #116 ) ;
#46 = ADVANCED_FACE ( 'NONE', ( #104 ), #312, .T. ) ;
#47 = PERSON_AND_ORGANIZATION ( #135, #163 ) ;
#48 = ORIENTED_EDGE ( 'NONE', *, *, #262, .T. ) ;
#49 = COORDINATED_UNIVERSAL_TIME_OFFSET ( 8, 0, .AHEAD. ) ;
#50 = CARTESIAN_POINT ( 'NONE',  ( -3.000000000000000000, 0.000000000000000000, 0.000000000000000000 ) ) ;
#51 = CC_DESIGN_APPROVAL ( #237, ( #320 ) ) ;
#52 = CIRCLE ( 'NONE', #254, 12.69999999999999929 ) ;
#53 = APPROVAL_PERSON_ORGANIZATION ( #69, #237, #22 ) ;
#54 = CALENDAR_DATE ( 2020, 22, 12 ) ;
#55 = DIRECTION ( 'NONE',  ( -1.000000000000000000, 0.000000000000000000, -0.000000000000000000 ) ) ;
#56 = APPROVAL ( #151, 'UNSPECIFIED' ) ;
#57 = CARTESIAN_POINT ( 'NONE',  ( -3.000000000000000000, 9.000000000000000000, 0.000000000000000000 ) ) ;
#58 = ORIENTED_EDGE ( 'NONE', *, *, #3, .F. ) ;
#59 = ORIENTED_EDGE ( 'NONE', *, *, #188, .F. ) ;
#60 = AXIS2_PLACEMENT_3D ( 'NONE', #216, #36, #9 ) ;
#61 = EDGE_CURVE ( 'NONE', #149, #184, #162, .T. ) ;
#62 = VECTOR ( 'NONE', #302, 1000.000000000000000 ) ;
#63 =( LENGTH_UNIT ( ) NAMED_UNIT ( * ) SI_UNIT ( .MILLI., .METRE. ) );
#64 = AXIS2_PLACEMENT_3D ( 'NONE', #314, #70, #115 ) ;
#65 = DIRECTION ( 'NONE',  ( -1.000000000000000000, -0.000000000000000000, -0.000000000000000000 ) ) ;
#66 = ORIENTED_EDGE ( 'NONE', *, *, #138, .F. ) ;
#67 = CARTESIAN_POINT ( 'NONE',  ( 0.01450000000000105718, 0.000000000000000000, 9.000000000000000000 ) ) ;
#68 = DIRECTION ( 'NONE',  ( -1.000000000000000000, -0.000000000000000000, -0.000000000000000000 ) ) ;
#69 = PERSON_AND_ORGANIZATION ( #135, #163 ) ;
#70 = DIRECTION ( 'NONE',  ( -1.000000000000000000, -0.000000000000000000, -0.000000000000000000 ) ) ;
#71 = AXIS2_PLACEMENT_3D ( 'NONE', #335, #81, #256 ) ;
#72 = EDGE_CURVE ( 'NONE', #74, #286, #107, .T. ) ;
#73 = EDGE_LOOP ( 'NONE', ( #290, #129 ) ) ;
#74 = VERTEX_POINT ( 'NONE', #133 ) ;
#75 = CALENDAR_DATE ( 2020, 22, 12 ) ;
#76 = CARTESIAN_POINT ( 'NONE',  ( -1.614212418857619014, 0.000000000000000000, 0.000000000000000000 ) ) ;
#77 = CIRCLE ( 'NONE', #168, 9.000000000000000000 ) ;
#78 = DIRECTION ( 'NONE',  ( 0.000000000000000000, 0.000000000000000000, 1.000000000000000000 ) ) ;
#79 = ORIENTED_EDGE ( 'NONE', *, *, #113, .F. ) ;
#80 = LINE ( 'NONE', #224, #215 ) ;
#81 = DIRECTION ( 'NONE',  ( -1.000000000000000000, -0.000000000000000000, -0.000000000000000000 ) ) ;
#82 = CLOSED_SHELL ( 'NONE', ( #46, #264, #165, #25, #204, #211, #83, #190, #167, #334 ) ) ;
#83 = ADVANCED_FACE ( 'NONE', ( #232, #29 ), #14, .F. ) ;
#84 = MANIFOLD_SOLID_BREP ( 'Ðý×', #82 ) ;
#85 = APPLICATION_CONTEXT ( 'configuration controlled 3d designs of mechanical parts and assemblies' ) ;
#86 = EDGE_CURVE ( 'NONE', #184, #245, #123, .T. ) ;
#87 = DIRECTION ( 'NONE',  ( 0.000000000000000000, 0.000000000000000000, 1.000000000000000000 ) ) ;
#88 = CC_DESIGN_DATE_AND_TIME_ASSIGNMENT ( #304, #18, ( #20 ) ) ;
#89 = APPROVAL_PERSON_ORGANIZATION ( #257, #56, #103 ) ;
#90 = CYLINDRICAL_SURFACE ( 'NONE', #112, 9.000000000000000000 ) ;
#91 = CARTESIAN_POINT ( 'NONE',  ( 3.000000000000000000, 1.555301434917138433E-15, -12.69999999999999929 ) ) ;
#92 = DIRECTION ( 'NONE',  ( -1.000000000000000000, -0.000000000000000000, -0.000000000000000000 ) ) ;
#93 = AXIS2_PLACEMENT_3D ( 'NONE', #218, #242, #193 ) ;
#94 = DIRECTION ( 'NONE',  ( -1.000000000000000000, -0.000000000000000000, -0.000000000000000000 ) ) ;
#95 = ORIENTED_EDGE ( 'NONE', *, *, #61, .T. ) ;
#96 = DATE_AND_TIME ( #75, #236 ) ;
#97 = VERTEX_POINT ( 'NONE', #246 ) ;
#98 = FACE_OUTER_BOUND ( 'NONE', #231, .T. ) ;
#99 = DIRECTION ( 'NONE',  ( 0.000000000000000000, 0.000000000000000000, 1.000000000000000000 ) ) ;
#100 = SECURITY_CLASSIFICATION_LEVEL ( 'unclassified' ) ;
#101 = AXIS2_PLACEMENT_3D ( 'NONE', #76, #260, #30 ) ;
#102 = EDGE_CURVE ( 'NONE', #143, #286, #326, .T. ) ;
#103 = APPROVAL_ROLE ( '' ) ;
#104 = FACE_OUTER_BOUND ( 'NONE', #40, .T. ) ;
#105 = APPLICATION_CONTEXT ( 'configuration controlled 3d designs of mechanical parts and assemblies' ) ;
#106 = CARTESIAN_POINT ( 'NONE',  ( -1.614212418857619014, 0.000000000000000000, 9.000000000000000000 ) ) ;
#107 = LINE ( 'NONE', #259, #210 ) ;
#108 = CARTESIAN_POINT ( 'NONE',  ( 0.01450000000000105718, 0.000000000000000000, 0.000000000000000000 ) ) ;
#109 = ORIENTED_EDGE ( 'NONE', *, *, #144, .T. ) ;
#110 = ORIENTED_EDGE ( 'NONE', *, *, #303, .F. ) ;
#111 = LOCAL_TIME ( 16, 58, 40.00000000000000000, #227 ) ;
#112 = AXIS2_PLACEMENT_3D ( 'NONE', #324, #94, #170 ) ;
#113 = EDGE_CURVE ( 'NONE', #149, #253, #45, .T. ) ;
#114 = CC_DESIGN_PERSON_AND_ORGANIZATION_ASSIGNMENT ( #255, #157, ( #320 ) ) ;
#115 = DIRECTION ( 'NONE',  ( 0.000000000000000000, 0.000000000000000000, 1.000000000000000000 ) ) ;
#116 = VECTOR ( 'NONE', #213, 1000.000000000000000 ) ;
#117 = CIRCLE ( 'NONE', #60, 9.000000000000000000 ) ;
#118 = DIRECTION ( 'NONE',  ( -1.000000000000000000, -0.000000000000000000, -0.000000000000000000 ) ) ;
#119 = CARTESIAN_POINT ( 'NONE',  ( 2.999999999999999112, 0.000000000000000000, 0.000000000000000000 ) ) ;
#120 = ORIENTED_EDGE ( 'NONE', *, *, #72, .F. ) ;
#121 =( GEOMETRIC_REPRESENTATION_CONTEXT ( 3 ) GLOBAL_UNCERTAINTY_ASSIGNED_CONTEXT ( ( #24 ) ) GLOBAL_UNIT_ASSIGNED_CONTEXT ( ( #63, #244, #166 ) ) REPRESENTATION_CONTEXT ( 'NONE', 'WORKASPACE' ) );
#122 = FACE_OUTER_BOUND ( 'NONE', #196, .T. ) ;
#123 = LINE ( 'NONE', #106, #284 ) ;
#124 = DATE_AND_TIME ( #54, #294 ) ;
#125 = ORIENTED_EDGE ( 'NONE', *, *, #138, .T. ) ;
#126 = DIRECTION ( 'NONE',  ( -1.000000000000000000, -0.000000000000000000, -0.000000000000000000 ) ) ;
#127 = APPROVAL_DATE_TIME ( #124, #147 ) ;
#128 = ORIENTED_EDGE ( 'NONE', *, *, #72, .T. ) ;
#129 = ORIENTED_EDGE ( 'NONE', *, *, #273, .T. ) ;
#130 = DIRECTION ( 'NONE',  ( -1.000000000000000000, -0.000000000000000000, -0.000000000000000000 ) ) ;
#131 = APPROVAL_ROLE ( '' ) ;
#132 = DIRECTION ( 'NONE',  ( 0.000000000000000000, 0.000000000000000000, -1.000000000000000000 ) ) ;
#133 = CARTESIAN_POINT ( 'NONE',  ( 2.999999999999999112, 1.102182119232617714E-15, -9.000000000000000000 ) ) ;
#134 = CARTESIAN_POINT ( 'NONE',  ( 0.01450000000000051595, 9.000000000000000000, 0.000000000000000000 ) ) ;
#135 = PERSON ( 'UNSPECIFIED', 'UNSPECIFIED', 'UNSPECIFIED', ('UNSPECIFIED'), ('UNSPECIFIED'), ('UNSPECIFIED') ) ;
#136 = ORIENTED_EDGE ( 'NONE', *, *, #217, .T. ) ;
#137 = AXIS2_PLACEMENT_3D ( 'NONE', #158, #258, #132 ) ;
#138 = EDGE_CURVE ( 'NONE', #329, #97, #333, .T. ) ;
#139 = CARTESIAN_POINT ( 'NONE',  ( -3.000000000000000000, 1.102182119232617714E-15, -9.000000000000000000 ) ) ;
#140 = DIRECTION ( 'NONE',  ( -1.000000000000000000, -0.000000000000000000, -0.000000000000000000 ) ) ;
#141 = EDGE_CURVE ( 'NONE', #97, #301, #152, .T. ) ;
#142 = APPLICATION_PROTOCOL_DEFINITION ( 'international standard', 'config_control_design', 1994, #85 ) ;
#143 = VERTEX_POINT ( 'NONE', #67 ) ;
#144 = EDGE_CURVE ( 'NONE', #179, #143, #80, .T. ) ;
#145 = CARTESIAN_POINT ( 'NONE',  ( -3.000000000000000000, 0.000000000000000000, 12.69999999999999929 ) ) ;
#146 = PLANE ( 'NONE',  #220 ) ;
#147 = APPROVAL ( #285, 'UNSPECIFIED' ) ;
#148 = CC_DESIGN_APPROVAL ( #147, ( #20 ) ) ;
#149 = VERTEX_POINT ( 'NONE', #174 ) ;
#150 = FACE_OUTER_BOUND ( 'NONE', #247, .T. ) ;
#151 = APPROVAL_STATUS ( 'not_yet_approved' ) ;
#152 = LINE ( 'NONE', #19, #62 ) ;
#153 = PERSON_AND_ORGANIZATION ( #135, #163 ) ;
#154 = ORIENTED_EDGE ( 'NONE', *, *, #207, .T. ) ;
#155 = DIRECTION ( 'NONE',  ( -1.000000000000000000, -0.000000000000000000, -0.000000000000000000 ) ) ;
#156 = DESIGN_CONTEXT ( 'detailed design', #105, 'design' ) ;
#157 = PERSON_AND_ORGANIZATION_ROLE ( 'design_supplier' ) ;
#158 = CARTESIAN_POINT ( 'NONE',  ( -0.01450000000000062350, 0.000000000000000000, 0.000000000000000000 ) ) ;
#159 = CARTESIAN_POINT ( 'NONE',  ( -1.614212418857619014, 1.102182119232617714E-15, -9.000000000000000000 ) ) ;
#160 = PLANE ( 'NONE',  #175 ) ;
#161 = ORIENTED_EDGE ( 'NONE', *, *, #113, .T. ) ;
#162 = CIRCLE ( 'NONE', #137, 9.000000000000000000 ) ;
#163 = ORGANIZATION ( 'UNSPECIFIED', 'UNSPECIFIED', '' ) ;
#164 = CARTESIAN_POINT ( 'NONE',  ( -0.01450000000000062350, 0.000000000000000000, 0.000000000000000000 ) ) ;
#165 = ADVANCED_FACE ( 'NONE', ( #98 ), #289, .F. ) ;
#166 =( NAMED_UNIT ( * ) SI_UNIT ( $, .STERADIAN. ) SOLID_ANGLE_UNIT ( ) );
#167 = ADVANCED_FACE ( 'NONE', ( #171, #39 ), #146, .F. ) ;
#168 = AXIS2_PLACEMENT_3D ( 'NONE', #183, #287, #41 ) ;
#169 = DIRECTION ( 'NONE',  ( 0.000000000000000000, 0.000000000000000000, -1.000000000000000000 ) ) ;
#170 = DIRECTION ( 'NONE',  ( 0.000000000000000000, 0.000000000000000000, 1.000000000000000000 ) ) ;
#171 = FACE_OUTER_BOUND ( 'NONE', #186, .T. ) ;
#172 = CC_DESIGN_PERSON_AND_ORGANIZATION_ASSIGNMENT ( #47, #26, ( #309 ) ) ;
#173 = PERSON_AND_ORGANIZATION_ROLE ( 'creator' ) ;
#174 = CARTESIAN_POINT ( 'NONE',  ( -0.01450000000000062350, 1.102182119232617714E-15, -9.000000000000000000 ) ) ;
#175 = AXIS2_PLACEMENT_3D ( 'NONE', #134, #55, #6 ) ;
#176 = APPROVAL_DATE_TIME ( #180, #237 ) ;
#177 = ORIENTED_EDGE ( 'NONE', *, *, #102, .T. ) ;
#178 = DIRECTION ( 'NONE',  ( -1.000000000000000000, -0.000000000000000000, -0.000000000000000000 ) ) ;
#179 = VERTEX_POINT ( 'NONE', #199 ) ;
#180 = DATE_AND_TIME ( #310, #313 ) ;
#181 = VERTEX_POINT ( 'NONE', #275 ) ;
#182 = EDGE_LOOP ( 'NONE', ( #7, #209 ) ) ;
#183 = CARTESIAN_POINT ( 'NONE',  ( -3.000000000000000000, 0.000000000000000000, 0.000000000000000000 ) ) ;
#184 = VERTEX_POINT ( 'NONE', #230 ) ;
#185 = DIRECTION ( 'NONE',  ( 0.000000000000000000, 0.000000000000000000, 1.000000000000000000 ) ) ;
#186 = EDGE_LOOP ( 'NONE', ( #23, #66 ) ) ;
#187 = AXIS2_PLACEMENT_3D ( 'NONE', #293, #118, #192 ) ;
#188 = EDGE_CURVE ( 'NONE', #253, #245, #77, .T. ) ;
#189 = CARTESIAN_POINT ( 'NONE',  ( 0.01450000000000105718, 1.102182119232617714E-15, -9.000000000000000000 ) ) ;
#190 = ADVANCED_FACE ( 'NONE', ( #150 ), #17, .T. ) ;
#191 = CARTESIAN_POINT ( 'NONE',  ( 2.999999999999999112, 0.000000000000000000, 0.000000000000000000 ) ) ;
#192 = DIRECTION ( 'NONE',  ( 0.000000000000000000, 0.000000000000000000, 1.000000000000000000 ) ) ;
#193 = DIRECTION ( 'NONE',  ( 1.000000000000000000, 0.000000000000000000, 0.000000000000000000 ) ) ;
#194 = AXIS2_PLACEMENT_3D ( 'NONE', #280, #272, #185 ) ;
#195 = CARTESIAN_POINT ( 'NONE',  ( -3.000000000000000000, 0.000000000000000000, 9.000000000000000000 ) ) ;
#196 = EDGE_LOOP ( 'NONE', ( #79, #95, #223, #154 ) ) ;
#197 = APPROVAL_DATE_TIME ( #96, #56 ) ;
#198 = ORIENTED_EDGE ( 'NONE', *, *, #28, .T. ) ;
#199 = CARTESIAN_POINT ( 'NONE',  ( 2.999999999999999112, 0.000000000000000000, 9.000000000000000000 ) ) ;
#200 = COORDINATED_UNIVERSAL_TIME_OFFSET ( 8, 0, .AHEAD. ) ;
#201 = EDGE_LOOP ( 'NONE', ( #48, #161, #325, #270 ) ) ;
#202 = CYLINDRICAL_SURFACE ( 'NONE', #64, 9.000000000000000000 ) ;
#203 = AXIS2_PLACEMENT_3D ( 'NONE', #57, #317, #5 ) ;
#204 = ADVANCED_FACE ( 'NONE', ( #1 ), #202, .F. ) ;
#205 = PRODUCT_DEFINITION_SHAPE ( 'NONE', 'NONE',  #20 ) ;
#206 = FACE_OUTER_BOUND ( 'NONE', #44, .T. ) ;
#207 = EDGE_CURVE ( 'NONE', #245, #253, #306, .T. ) ;
#208 = CARTESIAN_POINT ( 'NONE',  ( -1.614212418857619014, 0.000000000000000000, 0.000000000000000000 ) ) ;
#209 = ORIENTED_EDGE ( 'NONE', *, *, #296, .T. ) ;
#210 = VECTOR ( 'NONE', #68, 1000.000000000000000 ) ;
#211 = ADVANCED_FACE ( 'NONE', ( #122 ), #90, .F. ) ;
#212 = CC_DESIGN_APPROVAL ( #56, ( #315 ) ) ;
#213 = DIRECTION ( 'NONE',  ( -1.000000000000000000, -0.000000000000000000, -0.000000000000000000 ) ) ;
#214 = ORIENTED_EDGE ( 'NONE', *, *, #141, .T. ) ;
#215 = VECTOR ( 'NONE', #130, 1000.000000000000000 ) ;
#216 = CARTESIAN_POINT ( 'NONE',  ( 0.01450000000000105718, 0.000000000000000000, 0.000000000000000000 ) ) ;
#217 = EDGE_CURVE ( 'NONE', #329, #181, #38, .T. ) ;
#218 = CARTESIAN_POINT ( 'NONE',  ( 0.000000000000000000, 0.000000000000000000, 0.000000000000000000 ) ) ;
#219 = MECHANICAL_CONTEXT ( 'NONE', #85, 'mechanical' ) ;
#220 = AXIS2_PLACEMENT_3D ( 'NONE', #221, #330, #305 ) ;
#221 = CARTESIAN_POINT ( 'NONE',  ( 2.999999999999999556, 12.69999999999999929, 0.000000000000000000 ) ) ;
#222 = CALENDAR_DATE ( 2020, 22, 12 ) ;
#223 = ORIENTED_EDGE ( 'NONE', *, *, #86, .T. ) ;
#224 = CARTESIAN_POINT ( 'NONE',  ( -1.614212418857619014, 0.000000000000000000, 9.000000000000000000 ) ) ;
#225 = SHAPE_DEFINITION_REPRESENTATION ( #205, #266 ) ;
#226 = CIRCLE ( 'NONE', #235, 9.000000000000000000 ) ;
#227 = COORDINATED_UNIVERSAL_TIME_OFFSET ( 8, 0, .AHEAD. ) ;
#228 = ORIENTED_EDGE ( 'NONE', *, *, #273, .F. ) ;
#229 = CC_DESIGN_PERSON_AND_ORGANIZATION_ASSIGNMENT ( #281, #43, ( #20 ) ) ;
#230 = CARTESIAN_POINT ( 'NONE',  ( -0.01450000000000062350, 0.000000000000000000, 9.000000000000000000 ) ) ;
#231 = EDGE_LOOP ( 'NONE', ( #288, #128, #316, #318 ) ) ;
#232 = FACE_BOUND ( 'NONE', #27, .T. ) ;
#233 = DIRECTION ( 'NONE',  ( 0.000000000000000000, 0.000000000000000000, 1.000000000000000000 ) ) ;
#234 = ORIENTED_EDGE ( 'NONE', *, *, #207, .F. ) ;
#235 = AXIS2_PLACEMENT_3D ( 'NONE', #119, #92, #321 ) ;
#236 = LOCAL_TIME ( 16, 58, 40.00000000000000000, #250 ) ;
#237 = APPROVAL ( #332, 'UNSPECIFIED' ) ;
#238 = DIRECTION ( 'NONE',  ( 1.000000000000000000, 0.000000000000000000, 0.000000000000000000 ) ) ;
#239 = FACE_OUTER_BOUND ( 'NONE', #243, .T. ) ;
#240 = AXIS2_PLACEMENT_3D ( 'NONE', #265, #34, #241 ) ;
#241 = DIRECTION ( 'NONE',  ( 0.000000000000000000, 0.000000000000000000, 1.000000000000000000 ) ) ;
#242 = DIRECTION ( 'NONE',  ( 0.000000000000000000, 0.000000000000000000, 1.000000000000000000 ) ) ;
#243 = EDGE_LOOP ( 'NONE', ( #261, #283 ) ) ;
#244 =( NAMED_UNIT ( * ) PLANE_ANGLE_UNIT ( ) SI_UNIT ( $, .RADIAN. ) );
#245 = VERTEX_POINT ( 'NONE', #195 ) ;
#246 = CARTESIAN_POINT ( 'NONE',  ( 3.000000000000000000, 0.000000000000000000, 12.69999999999999929 ) ) ;
#247 = EDGE_LOOP ( 'NONE', ( #279, #125, #214, #228 ) ) ;
#248 = DIRECTION ( 'NONE',  ( -1.000000000000000000, -0.000000000000000000, -0.000000000000000000 ) ) ;
#249 = EDGE_CURVE ( 'NONE', #286, #143, #117, .T. ) ;
#250 = COORDINATED_UNIVERSAL_TIME_OFFSET ( 8, 0, .AHEAD. ) ;
#251 = DIRECTION ( 'NONE',  ( -1.000000000000000000, -0.000000000000000000, -0.000000000000000000 ) ) ;
#252 = DATE_TIME_ROLE ( 'classification_date' ) ;
#253 = VERTEX_POINT ( 'NONE', #139 ) ;
#254 = AXIS2_PLACEMENT_3D ( 'NONE', #323, #299, #87 ) ;
#255 = PERSON_AND_ORGANIZATION ( #135, #163 ) ;
#256 = DIRECTION ( 'NONE',  ( 0.000000000000000000, 0.000000000000000000, 1.000000000000000000 ) ) ;
#257 = PERSON_AND_ORGANIZATION ( #135, #163 ) ;
#258 = DIRECTION ( 'NONE',  ( 1.000000000000000000, 0.000000000000000000, 0.000000000000000000 ) ) ;
#259 = CARTESIAN_POINT ( 'NONE',  ( -1.614212418857619014, 1.102182119232617714E-15, -9.000000000000000000 ) ) ;
#260 = DIRECTION ( 'NONE',  ( -1.000000000000000000, -0.000000000000000000, -0.000000000000000000 ) ) ;
#261 = ORIENTED_EDGE ( 'NONE', *, *, #262, .F. ) ;
#262 = EDGE_CURVE ( 'NONE', #184, #149, #35, .T. ) ;
#263 = AXIS2_PLACEMENT_3D ( 'NONE', #191, #65, #267 ) ;
#264 = ADVANCED_FACE ( 'NONE', ( #11 ), #12, .F. ) ;
#265 = CARTESIAN_POINT ( 'NONE',  ( -3.000000000000000000, 0.000000000000000000, 0.000000000000000000 ) ) ;
#266 = ADVANCED_BREP_SHAPE_REPRESENTATION ( 'Q-SHPHWP-18-532-M', ( #84, #93 ), #121 ) ;
#267 = DIRECTION ( 'NONE',  ( 0.000000000000000000, 0.000000000000000000, 1.000000000000000000 ) ) ;
#268 = CIRCLE ( 'NONE', #263, 9.000000000000000000 ) ;
#269 = CARTESIAN_POINT ( 'NONE',  ( -0.01450000000000051595, 9.000000000000000000, 0.000000000000000000 ) ) ;
#270 = ORIENTED_EDGE ( 'NONE', *, *, #86, .F. ) ;
#271 = CARTESIAN_POINT ( 'NONE',  ( -1.614212418857619014, 1.555301434917138433E-15, -12.69999999999999929 ) ) ;
#272 = DIRECTION ( 'NONE',  ( -1.000000000000000000, -0.000000000000000000, -0.000000000000000000 ) ) ;
#273 = EDGE_CURVE ( 'NONE', #181, #301, #52, .T. ) ;
#274 = PERSON_AND_ORGANIZATION ( #135, #163 ) ;
#275 = CARTESIAN_POINT ( 'NONE',  ( -3.000000000000000000, 1.555301434917138433E-15, -12.69999999999999929 ) ) ;
#276 = CC_DESIGN_SECURITY_CLASSIFICATION ( #315, ( #320 ) ) ;
#277 = AXIS2_PLACEMENT_3D ( 'NONE', #208, #248, #300 ) ;
#278 = DATE_AND_TIME ( #16, #111 ) ;
#279 = ORIENTED_EDGE ( 'NONE', *, *, #217, .F. ) ;
#280 = CARTESIAN_POINT ( 'NONE',  ( 3.000000000000000000, 0.000000000000000000, 0.000000000000000000 ) ) ;
#281 = PERSON_AND_ORGANIZATION ( #135, #163 ) ;
#282 = APPLICATION_PROTOCOL_DEFINITION ( 'international standard', 'config_control_design', 1994, #105 ) ;
#283 = ORIENTED_EDGE ( 'NONE', *, *, #61, .F. ) ;
#284 = VECTOR ( 'NONE', #178, 1000.000000000000000 ) ;
#285 = APPROVAL_STATUS ( 'not_yet_approved' ) ;
#286 = VERTEX_POINT ( 'NONE', #189 ) ;
#287 = DIRECTION ( 'NONE',  ( -1.000000000000000000, -0.000000000000000000, -0.000000000000000000 ) ) ;
#288 = ORIENTED_EDGE ( 'NONE', *, *, #296, .F. ) ;
#289 = CYLINDRICAL_SURFACE ( 'NONE', #277, 9.000000000000000000 ) ;
#290 = ORIENTED_EDGE ( 'NONE', *, *, #3, .T. ) ;
#291 = AXIS2_PLACEMENT_3D ( 'NONE', #164, #238, #319 ) ;
#292 = CC_DESIGN_DATE_AND_TIME_ASSIGNMENT ( #278, #252, ( #315 ) ) ;
#293 = CARTESIAN_POINT ( 'NONE',  ( -1.614212418857619014, 0.000000000000000000, 0.000000000000000000 ) ) ;
#294 = LOCAL_TIME ( 16, 58, 40.00000000000000000, #49 ) ;
#295 = DIRECTION ( 'NONE',  ( 1.000000000000000000, 0.000000000000000000, 0.000000000000000000 ) ) ;
#296 = EDGE_CURVE ( 'NONE', #74, #179, #226, .T. ) ;
#297 = PLANE ( 'NONE',  #298 ) ;
#298 = AXIS2_PLACEMENT_3D ( 'NONE', #269, #295, #169 ) ;
#299 = DIRECTION ( 'NONE',  ( -1.000000000000000000, -0.000000000000000000, -0.000000000000000000 ) ) ;
#300 = DIRECTION ( 'NONE',  ( 0.000000000000000000, 0.000000000000000000, 1.000000000000000000 ) ) ;
#301 = VERTEX_POINT ( 'NONE', #145 ) ;
#302 = DIRECTION ( 'NONE',  ( -1.000000000000000000, -0.000000000000000000, -0.000000000000000000 ) ) ;
#303 = EDGE_CURVE ( 'NONE', #179, #74, #268, .T. ) ;
#304 = DATE_AND_TIME ( #222, #42 ) ;
#305 = DIRECTION ( 'NONE',  ( -0.000000000000000000, 0.000000000000000000, 1.000000000000000000 ) ) ;
#306 = CIRCLE ( 'NONE', #240, 9.000000000000000000 ) ;
#307 = AXIS2_PLACEMENT_3D ( 'NONE', #331, #126, #99 ) ;
#308 = PERSON_AND_ORGANIZATION ( #135, #163 ) ;
#309 = PRODUCT ( 'Q-SHPHWP-18-532-M', 'Q-SHPHWP-18-532-M', '', ( #219 ) ) ;
#310 = CALENDAR_DATE ( 2020, 22, 12 ) ;
#311 = COORDINATED_UNIVERSAL_TIME_OFFSET ( 8, 0, .AHEAD. ) ;
#312 = CYLINDRICAL_SURFACE ( 'NONE', #101, 12.69999999999999929 ) ;
#313 = LOCAL_TIME ( 16, 58, 40.00000000000000000, #311 ) ;
#314 = CARTESIAN_POINT ( 'NONE',  ( -1.614212418857619014, 0.000000000000000000, 0.000000000000000000 ) ) ;
#315 = SECURITY_CLASSIFICATION ( '', '', #100 ) ;
#316 = ORIENTED_EDGE ( 'NONE', *, *, #249, .T. ) ;
#317 = DIRECTION ( 'NONE',  ( 1.000000000000000000, 0.000000000000000000, 0.000000000000000000 ) ) ;
#318 = ORIENTED_EDGE ( 'NONE', *, *, #144, .F. ) ;
#319 = DIRECTION ( 'NONE',  ( 0.000000000000000000, 0.000000000000000000, -1.000000000000000000 ) ) ;
#320 = PRODUCT_DEFINITION_FORMATION_WITH_SPECIFIED_SOURCE ( 'ANY', '', #309, .NOT_KNOWN. ) ;
#321 = DIRECTION ( 'NONE',  ( 0.000000000000000000, 0.000000000000000000, 1.000000000000000000 ) ) ;
#322 = CC_DESIGN_PERSON_AND_ORGANIZATION_ASSIGNMENT ( #274, #173, ( #320 ) ) ;
#323 = CARTESIAN_POINT ( 'NONE',  ( -3.000000000000000000, 0.000000000000000000, 0.000000000000000000 ) ) ;
#324 = CARTESIAN_POINT ( 'NONE',  ( -1.614212418857619014, 0.000000000000000000, 0.000000000000000000 ) ) ;
#325 = ORIENTED_EDGE ( 'NONE', *, *, #188, .T. ) ;
#326 = CIRCLE ( 'NONE', #21, 9.000000000000000000 ) ;
#327 = PRODUCT_RELATED_PRODUCT_CATEGORY ( 'detail', '', ( #309 ) ) ;
#328 = PERSON_AND_ORGANIZATION_ROLE ( 'classification_officer' ) ;
#329 = VERTEX_POINT ( 'NONE', #91 ) ;
#330 = DIRECTION ( 'NONE',  ( -1.000000000000000000, 0.000000000000000000, -0.000000000000000000 ) ) ;
#331 = CARTESIAN_POINT ( 'NONE',  ( -1.614212418857619014, 0.000000000000000000, 0.000000000000000000 ) ) ;
#332 = APPROVAL_STATUS ( 'not_yet_approved' ) ;
#333 = CIRCLE ( 'NONE', #194, 12.69999999999999929 ) ;
#334 = ADVANCED_FACE ( 'NONE', ( #239 ), #297, .F. ) ;
#335 = CARTESIAN_POINT ( 'NONE',  ( 3.000000000000000000, 0.000000000000000000, 0.000000000000000000 ) ) ;
ENDSEC;
END-ISO-10303-21;
